  0
SECTION
  2
HEADER
  9
$ACADVER
  1
AC1014
  9
$ACADMAINTVER
 70
     5
  9
$DWGCODEPAGE
  3
ANSI_1252
  9
$INSBASE
 10
0.0
 20
0.0
 30
0.0
  9
$EXTMIN
 10
-189.119502
 20
-256.575833
 30
-0.001526
  9
$EXTMAX
 10
189.155795
 20
178.450716
 30
0.0
  9
$LIMMIN
 10
0.0
 20
0.0
  9
$LIMMAX
 10
2378.0
 20
1682.0
  9
$ORTHOMODE
 70
     0
  9
$REGENMODE
 70
     1
  9
$FILLMODE
 70
     1
  9
$QTEXTMODE
 70
     0
  9
$MIRRTEXT
 70
     1
  9
$DRAGMODE
 70
     2
  9
$LTSCALE
 40
1.0
  9
$OSMODE
 70
     0
  9
$ATTMODE
 70
     1
  9
$TEXTSIZE
 40
20.0
  9
$TRACEWID
 40
0.05
  9
$TEXTSTYLE
  7
ROMANS
  9
$CLAYER
  8
VHH-025
  9
$CELTYPE
  6
BYLAYER
  9
$CECOLOR
 62
   256
  9
$CELTSCALE
 40
1.0
  9
$DELOBJ
 70
     1
  9
$DISPSILH
 70
     0
  9
$DIMSCALE
 40
1.0
  9
$DIMASZ
 40
8.8
  9
$DIMEXO
 40
6.0
  9
$DIMDLI
 40
28.0
  9
$DIMRND
 40
0.0
  9
$DIMDLE
 40
0.0
  9
$DIMEXE
 40
4.8
  9
$DIMTP
 40
0.0
  9
$DIMTM
 40
0.0
  9
$DIMTXT
 40
10.0
  9
$DIMCEN
 40
-3.0
  9
$DIMTSZ
 40
0.0
  9
$DIMTOL
 70
     0
  9
$DIMLIM
 70
     0
  9
$DIMTIH
 70
     0
  9
$DIMTOH
 70
     0
  9
$DIMSE1
 70
     0
  9
$DIMSE2
 70
     0
  9
$DIMTAD
 70
     1
  9
$DIMZIN
 70
     0
  9
$DIMBLK
  1

  9
$DIMASO
 70
     0
  9
$DIMSHO
 70
     1
  9
$DIMPOST
  1

  9
$DIMAPOST
  1

  9
$DIMALT
 70
     0
  9
$DIMALTD
 70
     2
  9
$DIMALTF
 40
25.4
  9
$DIMLFAC
 40
1.0
  9
$DIMTOFL
 70
     0
  9
$DIMTVP
 40
0.0
  9
$DIMTIX
 70
     0
  9
$DIMSOXD
 70
     0
  9
$DIMSAH
 70
     0
  9
$DIMBLK1
  1

  9
$DIMBLK2
  1

  9
$DIMSTYLE
  2
STANDARD
  9
$DIMCLRD
 70
     0
  9
$DIMCLRE
 70
     0
  9
$DIMCLRT
 70
     0
  9
$DIMTFAC
 40
1.0
  9
$DIMGAP
 40
0.09
  9
$DIMJUST
 70
     0
  9
$DIMSD1
 70
     0
  9
$DIMSD2
 70
     0
  9
$DIMTOLJ
 70
     1
  9
$DIMTZIN
 70
     0
  9
$DIMALTZ
 70
     0
  9
$DIMALTTZ
 70
     0
  9
$DIMFIT
 70
     5
  9
$DIMUPT
 70
     0
  9
$DIMUNIT
 70
     2
  9
$DIMDEC
 70
     2
  9
$DIMTDEC
 70
     2
  9
$DIMALTU
 70
     2
  9
$DIMALTTD
 70
     2
  9
$DIMTXSTY
  7
ROMANS
  9
$DIMAUNIT
 70
     0
  9
$LUNITS
 70
     2
  9
$LUPREC
 70
     2
  9
$SKETCHINC
 40
0.1
  9
$FILLETRAD
 40
0.0
  9
$AUNITS
 70
     0
  9
$AUPREC
 70
     2
  9
$MENU
  1
wtb2
  9
$ELEVATION
 40
0.0
  9
$PELEVATION
 40
0.0
  9
$THICKNESS
 40
0.0
  9
$LIMCHECK
 70
     0
  9
$BLIPMODE
 70
     0
  9
$CHAMFERA
 40
1.6
  9
$CHAMFERB
 40
2.5
  9
$CHAMFERC
 40
0.0
  9
$CHAMFERD
 40
0.0
  9
$SKPOLY
 70
     0
  9
$TDCREATE
 40
2451277.606034062
  9
$TDUPDATE
 40
2451302.489727638
  9
$TDINDWG
 40
0.7024254977
  9
$TDUSRTIMER
 40
0.7024254977
  9
$USRTIMER
 70
     1
  9
$ANGBASE
 50
0.0
  9
$ANGDIR
 70
     0
  9
$PDMODE
 70
     0
  9
$PDSIZE
 40
0.0
  9
$PLINEWID
 40
0.0
  9
$COORDS
 70
     2
  9
$SPLFRAME
 70
     0
  9
$SPLINETYPE
 70
     6
  9
$SPLINESEGS
 70
     8
  9
$ATTDIA
 70
     0
  9
$ATTREQ
 70
     1
  9
$HANDLING
 70
     1
  9
$HANDSEED
  5
78
  9
$SURFTAB1
 70
     6
  9
$SURFTAB2
 70
     6
  9
$SURFTYPE
 70
     6
  9
$SURFU
 70
     6
  9
$SURFV
 70
     6
  9
$UCSNAME
  2

  9
$UCSORG
 10
0.0
 20
0.0
 30
0.0
  9
$UCSXDIR
 10
1.0
 20
0.0
 30
0.0
  9
$UCSYDIR
 10
0.0
 20
1.0
 30
0.0
  9
$PUCSNAME
  2

  9
$PUCSORG
 10
0.0
 20
0.0
 30
0.0
  9
$PUCSXDIR
 10
1.0
 20
0.0
 30
0.0
  9
$PUCSYDIR
 10
0.0
 20
1.0
 30
0.0
  9
$USERI1
 70
     0
  9
$USERI2
 70
     0
  9
$USERI3
 70
     0
  9
$USERI4
 70
     0
  9
$USERI5
 70
     0
  9
$USERR1
 40
0.0
  9
$USERR2
 40
0.0
  9
$USERR3
 40
0.0
  9
$USERR4
 40
0.0
  9
$USERR5
 40
0.0
  9
$WORLDVIEW
 70
     1
  9
$SHADEDGE
 70
     3
  9
$SHADEDIF
 70
    70
  9
$TILEMODE
 70
     1
  9
$MAXACTVP
 70
    48
  9
$PINSBASE
 10
0.0
 20
0.0
 30
0.0
  9
$PLIMCHECK
 70
     0
  9
$PEXTMIN
 10
1.000000E+20
 20
1.000000E+20
 30
1.000000E+20
  9
$PEXTMAX
 10
-1.000000E+20
 20
-1.000000E+20
 30
-1.000000E+20
  9
$PLIMMIN
 10
0.0
 20
0.0
  9
$PLIMMAX
 10
12.0
 20
9.0
  9
$UNITMODE
 70
     0
  9
$VISRETAIN
 70
     0
  9
$PLINEGEN
 70
     0
  9
$PSLTSCALE
 70
     0
  9
$TREEDEPTH
 70
  3020
  9
$PICKSTYLE
 70
     1
  9
$CMLSTYLE
  2
STANDARD
  9
$CMLJUST
 70
     0
  9
$CMLSCALE
 40
1.0
  9
$PROXYGRAPHICS
 70
     1
  9
$MEASUREMENT
 70
     0
  0
ENDSEC
  0
SECTION
  2
CLASSES
  0
CLASS
  1
LWPOLYLINE
  2
AcDbPolyline
  3
"AutoCAD"
 90
        0
280
     0
281
     1
  0
ENDSEC
  0
SECTION
  2
TABLES
  0
TABLE
  2
VPORT
  5
12
100
AcDbSymbolTable
 70
     2
  0
VPORT
  5
77
100
AcDbSymbolTableRecord
100
AcDbViewportTableRecord
  2
*ACTIVE
 70
     0
 10
0.0
 20
0.0
 11
1.0
 21
1.0
 12
0.018147
 22
-39.062558
 13
0.0
 23
0.0
 14
25.0
 24
25.0
 15
25.0
 25
25.0
 16
0.0
 26
0.0
 36
1.0
 17
0.0
 27
0.0
 37
0.0
 40
439.923658
 41
1.650376
 42
50.0
 43
0.0
 44
0.0
 50
0.0
 51
0.0
 71
     0
 72
  1000
 73
     1
 74
     0
 75
     0
 76
     1
 77
     0
 78
     1
  0
ENDTAB
  0
TABLE
  2
LTYPE
  5
D
100
AcDbSymbolTable
 70
     1
  0
LTYPE
  5
E
100
AcDbSymbolTableRecord
100
AcDbLinetypeTableRecord
  2
BYBLOCK
 70
     0
  3

 72
    65
 73
     0
 40
0.0
  0
LTYPE
  5
F
100
AcDbSymbolTableRecord
100
AcDbLinetypeTableRecord
  2
BYLAYER
 70
     0
  3

 72
    65
 73
     0
 40
0.0
  0
LTYPE
  5
5
100
AcDbSymbolTableRecord
100
AcDbLinetypeTableRecord
  2
CONTINUOUS
 70
     0
  3
Solid line
 72
    65
 73
     0
 40
0.0
  0
ENDTAB
  0
TABLE
  2
LAYER
  5
A
100
AcDbSymbolTable
 70
     5
  0
LAYER
  5
4
100
AcDbSymbolTableRecord
100
AcDbLayerTableRecord
  2
0
 70
     0
 62
     7
  6
CONTINUOUS
  0
LAYER
  5
1B
100
AcDbSymbolTableRecord
100
AcDbLayerTableRecord
  2
VHH-025
 70
     0
 62
     7
  6
CONTINUOUS
  0
LAYER
  5
20
100
AcDbSymbolTableRecord
100
AcDbLayerTableRecord
  2
VHH-035
 70
     0
 62
     2
  6
CONTINUOUS
  0
LAYER
  5
49
100
AcDbSymbolTableRecord
100
AcDbLayerTableRecord
  2
VHH-INS
 70
     0
 62
     7
  6
CONTINUOUS
  0
LAYER
  5
72
100
AcDbSymbolTableRecord
100
AcDbLayerTableRecord
  2
VHH-W_E
 70
     0
 62
     6
  6
CONTINUOUS
  0
ENDTAB
  0
TABLE
  2
STYLE
  5
B
100
AcDbSymbolTable
 70
     2
  0
STYLE
  5
C
100
AcDbSymbolTableRecord
100
AcDbTextStyleTableRecord
  2
STANDARD
 70
     0
 40
0.0
 41
1.0
 50
0.0
 71
     0
 42
15.0
  3
txt
  4

  0
STYLE
  5
1C
100
AcDbSymbolTableRecord
100
AcDbTextStyleTableRecord
  2
ROMANS
 70
     0
 40
0.0
 41
1.0
 50
0.0
 71
     0
 42
20.0
  3
romans
  4

  0
ENDTAB
  0
TABLE
  2
VIEW
  5
10
100
AcDbSymbolTable
 70
     0
  0
ENDTAB
  0
TABLE
  2
UCS
  5
11
100
AcDbSymbolTable
 70
     0
  0
ENDTAB
  0
TABLE
  2
APPID
  5
14
100
AcDbSymbolTable
 70
     1
  0
APPID
  5
15
100
AcDbSymbolTableRecord
100
AcDbRegAppTableRecord
  2
ACAD
 70
     0
  0
ENDTAB
  0
TABLE
  2
DIMSTYLE
  5
16
100
AcDbSymbolTable
 70
     1
  0
DIMSTYLE
105
1E
100
AcDbSymbolTableRecord
100
AcDbDimStyleTableRecord
  2
STANDARD
 70
     0
  3

  4

  5

  6

  7

 40
1.0
 41
0.18
 42
0.0625
 43
0.38
 44
0.18
 45
0.0
 46
0.0
 47
0.0
 48
0.0
140
0.18
141
0.09
142
0.0
143
25.4
144
1.0
145
0.0
146
1.0
147
0.09
 71
     0
 72
     0
 73
     1
 74
     1
 75
     0
 76
     0
 77
     0
 78
     0
170
     0
171
     2
172
     0
173
     0
174
     0
175
     0
176
     0
177
     0
178
     0
270
     2
271
     4
272
     4
273
     2
274
     2
340
C
275
     0
280
     0
281
     0
282
     0
283
     1
284
     0
285
     0
286
     0
287
     3
288
     0
  0
ENDTAB
  0
TABLE
  2
BLOCK_RECORD
  5
1
100
AcDbSymbolTable
 70
     0
  0
BLOCK_RECORD
  5
2
100
AcDbSymbolTableRecord
100
AcDbBlockTableRecord
  2
*MODEL_SPACE
  0
BLOCK_RECORD
  5
7
100
AcDbSymbolTableRecord
100
AcDbBlockTableRecord
  2
*PAPER_SPACE
  0
ENDTAB
  0
ENDSEC
  0
SECTION
  2
BLOCKS
  0
BLOCK
  5
3
100
AcDbEntity
  8
0
100
AcDbBlockBegin
  2
*MODEL_SPACE
 70
     0
 10
0.0
 20
0.0
 30
0.0
  3
*MODEL_SPACE
  1

  0
ENDBLK
  5
6
100
AcDbEntity
  8
0
100
AcDbBlockEnd
  0
BLOCK
  5
8
100
AcDbEntity
 67
     1
  8
0
100
AcDbBlockBegin
  2
*PAPER_SPACE
 70
     0
 10
0.0
 20
0.0
 30
0.0
  3
*PAPER_SPACE
  1

  0
ENDBLK
  5
9
100
AcDbEntity
 67
     1
  8
0
100
AcDbBlockEnd
  0
ENDSEC
  0
SECTION
  2
ENTITIES
  0
ARC
  5
1F
100
AcDbEntity
  8
VHH-035
100
AcDbCircle
 10
0.0
 20
-208.525947
 30
0.0
 40
21.0
100
AcDbArc
 50
305.883725
 51
234.116275
  0
LINE
  5
21
100
AcDbEntity
  8
VHH-035
100
AcDbLine
 10
16.75
 20
-242.114404
 30
0.0
 11
7.75
 21
-208.525947
 31
0.0
  0
LINE
  5
22
100
AcDbEntity
  8
VHH-035
100
AcDbLine
 10
-16.75
 20
-256.515947
 30
0.0
 11
16.75
 21
-256.515947
 31
0.0
  0
LINE
  5
23
100
AcDbEntity
  8
VHH-025
100
AcDbLine
 10
-16.75
 20
-254.515947
 30
0.0
 11
16.75
 21
-254.515947
 31
0.0
  0
LINE
  5
24
100
AcDbEntity
  8
VHH-035
100
AcDbLine
 10
-14.5
 20
-179.225947
 30
0.0
 11
14.5
 21
-179.225947
 31
0.0
  0
CIRCLE
  5
25
100
AcDbEntity
  8
VHH-035
100
AcDbCircle
 10
0.0
 20
0.0
 30
0.0
 40
143.25
  0
CIRCLE
  5
26
100
AcDbEntity
  8
VHH-025
100
AcDbCircle
 10
0.0
 20
0.0
 30
0.0
 40
122.95
  0
CIRCLE
  5
27
100
AcDbEntity
  8
VHH-035
100
AcDbCircle
 10
0.0
 20
0.0
 30
0.0
 40
133.5
  0
LINE
  5
28
100
AcDbEntity
  8
VHH-035
100
AcDbLine
 10
-16.0
 20
-177.725947
 30
0.0
 11
-16.0
 21
-141.99559
 31
0.0
  0
CIRCLE
  5
29
100
AcDbEntity
  8
VHH-025
100
AcDbCircle
 10
0.0
 20
-164.125947
 30
0.0
 40
12.5
  0
CIRCLE
  5
2A
100
AcDbEntity
  8
VHH-025
100
AcDbCircle
 10
0.0
 20
-164.125947
 30
0.0
 40
11.5
  0
LINE
  5
2B
100
AcDbEntity
  8
VHH-035
100
AcDbLine
 10
-16.75
 20
-242.114404
 30
0.0
 11
-7.75
 21
-208.525947
 31
0.0
  0
LINE
  5
2C
100
AcDbEntity
  8
VHH-035
100
AcDbLine
 10
-16.75
 20
-256.515947
 30
0.0
 11
-16.75
 21
-242.114404
 31
0.0
  0
LINE
  5
2D
100
AcDbEntity
  8
VHH-035
100
AcDbLine
 10
-7.75
 20
-208.525947
 30
0.0
 11
-7.75
 21
-197.025947
 31
0.0
  0
LINE
  5
2E
100
AcDbEntity
  8
VHH-035
100
AcDbLine
 10
7.75
 20
-208.525947
 30
0.0
 11
7.75
 21
-197.025947
 31
0.0
  0
ARC
  5
2F
100
AcDbEntity
  8
VHH-035
100
AcDbCircle
 10
-14.5
 20
-177.725947
 30
0.0
 40
1.5
100
AcDbArc
 50
180.0
 51
270.0
  0
LINE
  5
30
100
AcDbEntity
  8
VHH-035
100
AcDbLine
 10
-11.0
 20
-190.637403
 30
0.0
 11
-11.0
 21
-179.225947
 31
0.0
  0
LINE
  5
31
100
AcDbEntity
  8
VHH-035
100
AcDbLine
 10
-7.75
 20
-197.025947
 30
0.0
 11
7.75
 21
-197.025947
 31
0.0
  0
LINE
  5
32
100
AcDbEntity
  8
VHH-035
100
AcDbLine
 10
11.0
 20
-190.637403
 30
0.0
 11
11.0
 21
-179.225947
 31
0.0
  0
LINE
  5
33
100
AcDbEntity
  8
VHH-035
100
AcDbLine
 10
-137.466625
 20
-40.292549
 30
0.0
 11
-181.081344
 21
-36.476756
 31
0.0
  0
LINE
  5
34
100
AcDbEntity
  8
VHH-035
100
AcDbLine
 10
-137.466625
 20
40.292549
 30
0.0
 11
-181.081344
 21
36.476756
 31
0.0
  0
ARC
  5
35
100
AcDbEntity
  8
VHH-035
100
AcDbCircle
 10
-167.538176
 20
20.1
 30
0.0
 40
5.0
100
AcDbArc
 50
90.0
 51
171.139552
  0
ARC
  5
36
100
AcDbEntity
  8
VHH-035
100
AcDbCircle
 10
-167.538176
 20
-20.1
 30
0.0
 40
5.0
100
AcDbArc
 50
188.860448
 51
270.0
  0
ARC
  5
37
100
AcDbEntity
  8
VHH-035
100
AcDbCircle
 10
-38.6
 20
0.0
 30
0.0
 40
150.495453
100
AcDbArc
 50
167.498063
 51
192.501937
  0
ARC
  5
38
100
AcDbEntity
  8
VHH-035
100
AcDbCircle
 10
-38.6
 20
0.0
 30
0.0
 40
135.495453
100
AcDbArc
 50
171.139552
 51
188.860448
  0
ARC
  5
39
100
AcDbEntity
  8
VHH-035
100
AcDbCircle
 10
-180.645565
 20
-31.495782
 30
0.0
 40
5.0
100
AcDbArc
 50
192.501937
 51
265.0
  0
ARC
  5
3A
100
AcDbEntity
  8
VHH-035
100
AcDbCircle
 10
-180.645565
 20
31.495782
 30
0.0
 40
5.0
100
AcDbArc
 50
95.0
 51
167.498063
  0
LINE
  5
3B
100
AcDbEntity
  8
VHH-035
100
AcDbLine
 10
-125.68823
 20
-112.960308
 30
0.0
 11
-110.838988
 21
-98.111066
 31
0.0
  0
CIRCLE
  5
3C
100
AcDbEntity
  8
VHH-035
100
AcDbCircle
 10
-111.899648
 20
-111.899648
 30
0.0
 40
9.0
  0
LINE
  5
3D
100
AcDbEntity
  8
VHH-035
100
AcDbLine
 10
-115.788735
 20
-93.161318
 30
0.0
 11
-93.161318
 21
-115.788735
 31
0.0
  0
LINE
  5
3E
100
AcDbEntity
  8
VHH-035
100
AcDbLine
 10
-125.68823
 20
-112.960308
 30
0.0
 11
-112.960308
 21
-125.68823
 31
0.0
  0
LINE
  5
3F
100
AcDbEntity
  8
VHH-035
100
AcDbLine
 10
-112.960308
 20
-125.68823
 30
0.0
 11
-98.111066
 21
-110.838988
 31
0.0
  0
LINE
  5
40
100
AcDbEntity
  8
VHH-035
100
AcDbLine
 10
-93.161318
 20
-115.788735
 30
0.0
 11
-89.109344
 21
-111.736761
 31
0.0
  0
LINE
  5
41
100
AcDbEntity
  8
VHH-035
100
AcDbLine
 10
-115.788735
 20
-93.161318
 30
0.0
 11
-111.736761
 21
-89.109344
 31
0.0
  0
ARC
  5
42
100
AcDbEntity
  8
VHH-035
100
AcDbCircle
 10
-162.595453
 20
20.1
 30
0.0
 40
5.0
100
AcDbArc
 50
0.0
 51
90.0
  0
LINE
  5
43
100
AcDbEntity
  8
VHH-035
100
AcDbLine
 10
-157.595453
 20
20.1
 30
0.0
 11
-157.595453
 21
-20.1
 31
0.0
  0
LINE
  5
44
100
AcDbEntity
  8
VHH-035
100
AcDbLine
 10
-162.595453
 20
-25.1
 30
0.0
 11
-167.538176
 21
-25.1
 31
0.0
  0
ARC
  5
45
100
AcDbEntity
  8
VHH-035
100
AcDbCircle
 10
-162.595453
 20
-20.1
 30
0.0
 40
5.0
100
AcDbArc
 50
270.0
 51
0.0
  0
LINE
  5
46
100
AcDbEntity
  8
VHH-035
100
AcDbLine
 10
-162.595453
 20
25.1
 30
0.0
 11
-167.538176
 21
25.1
 31
0.0
  0
CIRCLE
  5
47
100
AcDbEntity
  8
VHH-035
100
AcDbCircle
 10
0.0
 20
0.0
 30
0.0
 40
10.0
  0
LWPOLYLINE
  5
48
100
AcDbEntity
  8
VHH-INS
100
AcDbPolyline
 90
        2
 70
     1
 43
4.75
 10
-2.625
 20
0.0
 42
1.0
 10
2.625
 20
0.0
 42
1.0
  0
LINE
  5
4A
100
AcDbEntity
  8
VHH-035
100
AcDbLine
 10
16.0
 20
-177.725947
 30
0.0
 11
16.0
 21
-142.624233
 31
0.0
  0
LINE
  5
4B
100
AcDbEntity
  8
VHH-035
100
AcDbLine
 10
16.75
 20
-256.515947
 30
0.0
 11
16.75
 21
-242.114404
 31
0.0
  0
ARC
  5
4C
100
AcDbEntity
  8
VHH-035
100
AcDbCircle
 10
14.5
 20
-177.725947
 30
0.0
 40
1.5
100
AcDbArc
 50
270.0
 51
0.0
  0
LINE
  5
4D
100
AcDbEntity
  8
VHH-035
100
AcDbLine
 10
137.466625
 20
-40.292549
 30
0.0
 11
181.081344
 21
-36.476756
 31
0.0
  0
LINE
  5
4E
100
AcDbEntity
  8
VHH-035
100
AcDbLine
 10
116.142289
 20
-86.443804
 30
0.0
 11
86.443804
 21
-116.142289
 31
0.0
  0
ELLIPSE
  5
4F
100
AcDbEntity
  8
VHH-025
100
AcDbEllipse
 10
117.202949
 20
-117.202949
 30
0.0
 11
-10.58619685783355
 21
-10.58619685783378
 31
0.0
210
0.0
220
0.0
230
-1.0
 40
0.100193
 41
0.0
 42
3.141592653589793
  0
ELLIPSE
  5
50
100
AcDbEntity
  8
VHH-035
100
AcDbEllipse
 10
117.202949
 20
-117.202949
 30
0.0
 11
-10.58619685783378
 21
-10.58619685783355
 31
0.0
210
0.0
220
0.0
230
1.0
 40
0.100193
 41
0.0
 42
3.141592653589791
  0
LINE
  5
51
100
AcDbEntity
  8
VHH-035
100
AcDbLine
 10
106.616752
 20
-127.789146
 30
0.0
 11
86.443804
 21
-116.142289
 31
0.0
  0
LINE
  5
52
100
AcDbEntity
  8
VHH-035
100
AcDbLine
 10
127.789146
 20
-106.616752
 30
0.0
 11
116.142289
 21
-86.443804
 31
0.0
  0
ARC
  5
53
100
AcDbEntity
  8
VHH-035
100
AcDbCircle
 10
167.538176
 20
20.1
 30
0.0
 40
5.0
100
AcDbArc
 50
8.860448
 51
90.0
  0
ARC
  5
54
100
AcDbEntity
  8
VHH-035
100
AcDbCircle
 10
162.595453
 20
20.1
 30
0.0
 40
5.0
100
AcDbArc
 50
90.0
 51
180.0
  0
ARC
  5
55
100
AcDbEntity
  8
VHH-035
100
AcDbCircle
 10
38.6
 20
0.0
 30
0.0
 40
150.495453
100
AcDbArc
 50
347.498063
 51
12.501937
  0
LINE
  5
56
100
AcDbEntity
  8
VHH-035
100
AcDbLine
 10
157.595453
 20
20.1
 30
0.0
 11
157.595453
 21
-20.1
 31
0.0
  0
ARC
  5
57
100
AcDbEntity
  8
VHH-035
100
AcDbCircle
 10
38.6
 20
0.0
 30
0.0
 40
135.495453
100
AcDbArc
 50
351.139552
 51
8.860448
  0
ARC
  5
58
100
AcDbEntity
  8
VHH-035
100
AcDbCircle
 10
167.538176
 20
-20.1
 30
0.0
 40
5.0
100
AcDbArc
 50
270.0
 51
351.139552
  0
ARC
  5
59
100
AcDbEntity
  8
VHH-035
100
AcDbCircle
 10
162.595453
 20
-20.1
 30
0.0
 40
5.0
100
AcDbArc
 50
180.0
 51
270.0
  0
LINE
  5
5A
100
AcDbEntity
  8
VHH-035
100
AcDbLine
 10
162.595453
 20
-25.1
 30
0.0
 11
167.538176
 21
-25.1
 31
0.0
  0
ARC
  5
5B
100
AcDbEntity
  8
VHH-035
100
AcDbCircle
 10
180.645565
 20
-31.495782
 30
0.0
 40
5.0
100
AcDbArc
 50
275.0
 51
347.498063
  0
LINE
  5
5C
100
AcDbEntity
  8
VHH-035
100
AcDbLine
 10
162.595453
 20
25.1
 30
0.0
 11
167.538176
 21
25.1
 31
0.0
  0
LINE
  5
5D
100
AcDbEntity
  8
VHH-035
100
AcDbLine
 10
137.466625
 20
40.292549
 30
0.0
 11
181.081344
 21
36.476756
 31
0.0
  0
LINE
  5
5E
100
AcDbEntity
  8
VHH-035
100
AcDbLine
 10
120.075093
 20
77.985641
 30
0.0
 11
133.29852
 21
85.620191
 31
0.0
  0
LINE
  5
5F
100
AcDbEntity
  8
VHH-025
100
AcDbLine
 10
128.968393
 20
83.120191
 30
0.0
 11
136.468393
 21
70.129809
 31
0.0
  0
LINE
  5
60
100
AcDbEntity
  8
VHH-035
100
AcDbLine
 10
127.575093
 20
64.99526
 30
0.0
 11
140.79852
 21
72.629809
 31
0.0
  0
LINE
  5
61
100
AcDbEntity
  8
VHH-035
100
AcDbLine
 10
140.128647
 20
83.790064
 30
0.0
 11
142.628647
 21
79.459936
 31
0.0
  0
ARC
  5
62
100
AcDbEntity
  8
VHH-035
100
AcDbCircle
 10
138.29852
 20
76.959936
 30
0.0
 40
5.0
100
AcDbArc
 50
300.0
 51
30.0
  0
ARC
  5
63
100
AcDbEntity
  8
VHH-035
100
AcDbCircle
 10
135.79852
 20
81.290064
 30
0.0
 40
5.0
100
AcDbArc
 50
30.0
 51
120.0
  0
ARC
  5
64
100
AcDbEntity
  8
VHH-035
100
AcDbCircle
 10
180.645565
 20
31.495782
 30
0.0
 40
5.0
100
AcDbArc
 50
12.501937
 51
85.0
  0
LINE
  5
65
100
AcDbEntity
  8
VHH-035
100
AcDbLine
 10
80.223076
 20
132.950444
 30
0.0
 11
98.93342
 21
165.357709
 31
0.0
  0
LINE
  5
66
100
AcDbEntity
  8
VHH-035
100
AcDbLine
 10
75.026924
 20
135.950444
 30
0.0
 11
93.477038
 21
167.906979
 31
0.0
  0
LINE
  5
67
100
AcDbEntity
  8
VHH-035
100
AcDbLine
 10
59.843113
 20
130.151313
 30
0.0
 11
62.150163
 21
134.147241
 31
0.0
  0
LINE
  5
68
100
AcDbEntity
  8
VHH-035
100
AcDbLine
 10
64.882214
 20
134.879292
 30
0.0
 11
84.367786
 21
123.629292
 31
0.0
  0
LINE
  5
69
100
AcDbEntity
  8
VHH-035
100
AcDbLine
 10
82.678738
 20
116.703775
 30
0.0
 11
85.099837
 21
120.897241
 31
0.0
  0
ARC
  5
6A
100
AcDbEntity
  8
VHH-035
100
AcDbCircle
 10
83.367786
 20
121.897241
 30
0.0
 40
2.0
100
AcDbArc
 50
330.0
 51
60.0
  0
ARC
  5
6B
100
AcDbEntity
  8
VHH-035
100
AcDbCircle
 10
82.254165
 20
129.468393
 30
0.0
 40
2.0
100
AcDbArc
 50
330.0
 51
60.0
  0
LINE
  5
6C
100
AcDbEntity
  8
VHH-035
100
AcDbLine
 10
81.986216
 20
125.004292
 30
0.0
 11
83.986216
 21
128.468393
 31
0.0
  0
LINE
  5
6D
100
AcDbEntity
  8
VHH-035
100
AcDbLine
 10
71.995835
 20
137.700444
 30
0.0
 11
83.254165
 21
131.200444
 31
0.0
  0
ARC
  5
6E
100
AcDbEntity
  8
VHH-035
100
AcDbCircle
 10
70.995835
 20
135.968393
 30
0.0
 40
2.0
100
AcDbArc
 50
60.0
 51
150.0
  0
ARC
  5
6F
100
AcDbEntity
  8
VHH-035
100
AcDbCircle
 10
63.882214
 20
133.147241
 30
0.0
 40
2.0
100
AcDbArc
 50
60.0
 51
150.0
  0
LINE
  5
70
100
AcDbEntity
  8
VHH-035
100
AcDbLine
 10
67.263784
 20
133.504292
 30
0.0
 11
69.263784
 21
136.968393
 31
0.0
  0
TEXT
  5
71
100
AcDbEntity
  8
VHH-W_E
100
AcDbText
 10
62.3
 20
158.428581
 30
0.0
 40
20.0
  1
E
  7
ROMANS
100
AcDbText
  0
ENDSEC
  0
SECTION
  2
OBJECTS
  0
DICTIONARY
  5
1A
100
AcDbDictionary
  3
ACAD_GROUP
350
18
  3
ACAD_MLINESTYLE
350
19
  0
DICTIONARY
  5
18
102
{ACAD_REACTORS
330
1A
102
}
100
AcDbDictionary
  0
DICTIONARY
  5
19
102
{ACAD_REACTORS
330
1A
102
}
100
AcDbDictionary
  3
STANDARD
350
1D
  0
MLINESTYLE
  5
1D
102
{ACAD_REACTORS
330
19
102
}
100
AcDbMlineStyle
  2
STANDARD
 70
     0
  3

 62
   256
 51
90.0
 52
90.0
 71
     2
 49
0.5
 62
   256
  6
BYLAYER
 49
-0.5
 62
   256
  6
BYLAYER
  0
ENDSEC
  0
EOF
